ISO-10303-21;
HEADER;
FILE_DESCRIPTION (( 'STEP AP203' ),
    '1' );
FILE_NAME ('Q-ZDWWP-R42-20-1064-SHM.STEP',
    '2020-12-22T09:02:49',
    ( '' ),
    ( '' ),
    'SwSTEP 2.0',
    'SolidWorks 2020',
    '' );
FILE_SCHEMA (( 'CONFIG_CONTROL_DESIGN' ));
ENDSEC;

DATA;
#1 = EDGE_LOOP ( 'NONE', ( #84, #237, #56, #137 ) ) ;
#2 = CC_DESIGN_PERSON_AND_ORGANIZATION_ASSIGNMENT ( #166, #169, ( #104 ) ) ;
#3 = ORIENTED_EDGE ( 'NONE', *, *, #308, .T. ) ;
#4 = ORGANIZATION ( 'UNSPECIFIED', 'UNSPECIFIED', '' ) ;
#5 = APPLICATION_PROTOCOL_DEFINITION ( 'international standard', 'config_control_design', 1994, #174 ) ;
#6 = EDGE_LOOP ( 'NONE', ( #334, #223, #318, #111 ) ) ;
#7 = ORIENTED_EDGE ( 'NONE', *, *, #25, .F. ) ;
#8 = CC_DESIGN_PERSON_AND_ORGANIZATION_ASSIGNMENT ( #247, #14, ( #189 ) ) ;
#9 = DATE_AND_TIME ( #300, #304 ) ;
#10 = CARTESIAN_POINT ( 'NONE',  ( -1.614212418857619014, 0.000000000000000000, 0.000000000000000000 ) ) ;
#11 = VECTOR ( 'NONE', #307, 1000.000000000000000 ) ;
#12 = LOCAL_TIME ( 17, 2, 49.00000000000000000, #172 ) ;
#13 = ORIENTED_EDGE ( 'NONE', *, *, #266, .F. ) ;
#14 = PERSON_AND_ORGANIZATION_ROLE ( 'classification_officer' ) ;
#15 = ORIENTED_EDGE ( 'NONE', *, *, #124, .F. ) ;
#16 = DATE_AND_TIME ( #242, #12 ) ;
#17 = ADVANCED_FACE ( 'NONE', ( #296 ), #270, .T. ) ;
#18 = DIRECTION ( 'NONE',  ( 0.000000000000000000, 0.000000000000000000, -1.000000000000000000 ) ) ;
#19 = AXIS2_PLACEMENT_3D ( 'NONE', #317, #78, #55 ) ;
#20 = CARTESIAN_POINT ( 'NONE',  ( 2.500000000000000888, 0.000000000000000000, 0.000000000000000000 ) ) ;
#21 = CARTESIAN_POINT ( 'NONE',  ( -1.614212418857619014, 0.000000000000000000, 12.69999999999999929 ) ) ;
#22 = CARTESIAN_POINT ( 'NONE',  ( -1.614212418857619014, 1.224646799147353256E-15, -10.00000000000000000 ) ) ;
#23 = CIRCLE ( 'NONE', #227, 12.69999999999999929 ) ;
#24 = CARTESIAN_POINT ( 'NONE',  ( -2.500000000000000444, 1.224646799147353256E-15, -10.00000000000000000 ) ) ;
#25 = EDGE_CURVE ( 'NONE', #263, #246, #274, .T. ) ;
#26 = CARTESIAN_POINT ( 'NONE',  ( 2.500000000000000888, 1.224646799147353256E-15, -10.00000000000000000 ) ) ;
#27 = LINE ( 'NONE', #331, #209 ) ;
#28 = AXIS2_PLACEMENT_3D ( 'NONE', #141, #273, #18 ) ;
#29 = AXIS2_PLACEMENT_3D ( 'NONE', #210, #83, #155 ) ;
#30 = CARTESIAN_POINT ( 'NONE',  ( -1.614212418857619014, 0.000000000000000000, 0.000000000000000000 ) ) ;
#31 = ORIENTED_EDGE ( 'NONE', *, *, #308, .F. ) ;
#32 = CARTESIAN_POINT ( 'NONE',  ( 2.500000000000000888, 0.000000000000000000, 10.00000000000000000 ) ) ;
#33 = ORIENTED_EDGE ( 'NONE', *, *, #178, .T. ) ;
#34 = ADVANCED_FACE ( 'NONE', ( #43, #225 ), #67, .F. ) ;
#35 = VERTEX_POINT ( 'NONE', #228 ) ;
#36 = DIRECTION ( 'NONE',  ( -1.000000000000000000, -0.000000000000000000, -0.000000000000000000 ) ) ;
#37 = EDGE_CURVE ( 'NONE', #202, #263, #326, .T. ) ;
#38 = CYLINDRICAL_SURFACE ( 'NONE', #19, 10.00000000000000000 ) ;
#39 = FACE_BOUND ( 'NONE', #203, .T. ) ;
#40 = EDGE_CURVE ( 'NONE', #35, #202, #133, .T. ) ;
#41 = CIRCLE ( 'NONE', #231, 10.00000000000000000 ) ;
#42 = APPROVAL_DATE_TIME ( #16, #306 ) ;
#43 = FACE_BOUND ( 'NONE', #258, .T. ) ;
#44 = CARTESIAN_POINT ( 'NONE',  ( 3.000000000000000000, 0.000000000000000000, 12.69999999999999929 ) ) ;
#45 = CARTESIAN_POINT ( 'NONE',  ( 2.999999999999999112, 0.000000000000000000, 0.000000000000000000 ) ) ;
#46 = CIRCLE ( 'NONE', #268, 12.69999999999999929 ) ;
#47 = DIRECTION ( 'NONE',  ( -1.000000000000000000, -0.000000000000000000, -0.000000000000000000 ) ) ;
#48 = DIRECTION ( 'NONE',  ( -1.000000000000000000, -0.000000000000000000, -0.000000000000000000 ) ) ;
#49 = CC_DESIGN_SECURITY_CLASSIFICATION ( #189, ( #104 ) ) ;
#50 = CARTESIAN_POINT ( 'NONE',  ( 2.500000000000000888, 0.000000000000000000, 0.000000000000000000 ) ) ;
#51 = DIRECTION ( 'NONE',  ( 1.000000000000000000, 0.000000000000000000, 0.000000000000000000 ) ) ;
#52 = CARTESIAN_POINT ( 'NONE',  ( 0.000000000000000000, 0.000000000000000000, 0.000000000000000000 ) ) ;
#53 = CARTESIAN_POINT ( 'NONE',  ( -1.614212418857619014, 0.000000000000000000, 0.000000000000000000 ) ) ;
#54 = ORIENTED_EDGE ( 'NONE', *, *, #178, .F. ) ;
#55 = DIRECTION ( 'NONE',  ( 0.000000000000000000, 0.000000000000000000, 1.000000000000000000 ) ) ;
#56 = ORIENTED_EDGE ( 'NONE', *, *, #88, .T. ) ;
#57 = VECTOR ( 'NONE', #181, 1000.000000000000000 ) ;
#58 = ORIENTED_EDGE ( 'NONE', *, *, #40, .T. ) ;
#59 = SHAPE_DEFINITION_REPRESENTATION ( #153, #171 ) ;
#60 = DIRECTION ( 'NONE',  ( 0.000000000000000000, 0.000000000000000000, 1.000000000000000000 ) ) ;
#61 = DIRECTION ( 'NONE',  ( -1.000000000000000000, -0.000000000000000000, -0.000000000000000000 ) ) ;
#62 = APPROVAL_STATUS ( 'not_yet_approved' ) ;
#63 = CIRCLE ( 'NONE', #321, 12.69999999999999929 ) ;
#64 = COORDINATED_UNIVERSAL_TIME_OFFSET ( 8, 0, .AHEAD. ) ;
#65 = VERTEX_POINT ( 'NONE', #44 ) ;
#66 = UNCERTAINTY_MEASURE_WITH_UNIT (LENGTH_MEASURE( 1.000000000000000082E-05 ), #286, 'distance_accuracy_value', 'NONE');
#67 = PLANE ( 'NONE',  #28 ) ;
#68 = DIRECTION ( 'NONE',  ( 0.000000000000000000, 0.000000000000000000, 1.000000000000000000 ) ) ;
#69 = AXIS2_PLACEMENT_3D ( 'NONE', #20, #301, #139 ) ;
#70 = AXIS2_PLACEMENT_3D ( 'NONE', #53, #36, #182 ) ;
#71 = DIRECTION ( 'NONE',  ( -1.000000000000000000, -0.000000000000000000, -0.000000000000000000 ) ) ;
#72 = DIRECTION ( 'NONE',  ( 0.000000000000000000, 0.000000000000000000, -1.000000000000000000 ) ) ;
#73 = CARTESIAN_POINT ( 'NONE',  ( 2.500000000000000444, 10.00000000000000000, 0.000000000000000000 ) ) ;
#74 = ADVANCED_FACE ( 'NONE', ( #294 ), #327, .F. ) ;
#75 = AXIS2_PLACEMENT_3D ( 'NONE', #136, #265, #252 ) ;
#76 =( NAMED_UNIT ( * ) SI_UNIT ( $, .STERADIAN. ) SOLID_ANGLE_UNIT ( ) );
#77 = ADVANCED_FACE ( 'NONE', ( #167, #39 ), #168, .F. ) ;
#78 = DIRECTION ( 'NONE',  ( -1.000000000000000000, -0.000000000000000000, -0.000000000000000000 ) ) ;
#79 = AXIS2_PLACEMENT_3D ( 'NONE', #288, #129, #217 ) ;
#80 = CYLINDRICAL_SURFACE ( 'NONE', #70, 12.69999999999999929 ) ;
#81 = VERTEX_POINT ( 'NONE', #24 ) ;
#82 = ORIENTED_EDGE ( 'NONE', *, *, #88, .F. ) ;
#83 = DIRECTION ( 'NONE',  ( 1.000000000000000000, 0.000000000000000000, 0.000000000000000000 ) ) ;
#84 = ORIENTED_EDGE ( 'NONE', *, *, #188, .F. ) ;
#85 = CALENDAR_DATE ( 2020, 22, 12 ) ;
#86 = DATE_TIME_ROLE ( 'creation_date' ) ;
#87 = ORIENTED_EDGE ( 'NONE', *, *, #121, .T. ) ;
#88 = EDGE_CURVE ( 'NONE', #65, #312, #125, .T. ) ;
#89 = PRODUCT_DEFINITION ( 'UNKNOWN', '', #104, #175 ) ;
#90 = VERTEX_POINT ( 'NONE', #97 ) ;
#91 = ORIENTED_EDGE ( 'NONE', *, *, #25, .T. ) ;
#92 = PERSON_AND_ORGANIZATION_ROLE ( 'design_owner' ) ;
#93 = ORIENTED_EDGE ( 'NONE', *, *, #267, .T. ) ;
#94 = ORIENTED_EDGE ( 'NONE', *, *, #249, .T. ) ;
#95 = CIRCLE ( 'NONE', #310, 10.00000000000000000 ) ;
#96 = DIRECTION ( 'NONE',  ( -1.000000000000000000, -0.000000000000000000, -0.000000000000000000 ) ) ;
#97 = CARTESIAN_POINT ( 'NONE',  ( -3.000000000000000444, 0.000000000000000000, 10.00000000000000000 ) ) ;
#98 = APPROVAL ( #62, 'UNSPECIFIED' ) ;
#99 = DIRECTION ( 'NONE',  ( 1.000000000000000000, 0.000000000000000000, 0.000000000000000000 ) ) ;
#100 = VECTOR ( 'NONE', #161, 1000.000000000000000 ) ;
#101 = CARTESIAN_POINT ( 'NONE',  ( -3.000000000000000444, 0.000000000000000000, 0.000000000000000000 ) ) ;
#102 = DIRECTION ( 'NONE',  ( 0.000000000000000000, 0.000000000000000000, 1.000000000000000000 ) ) ;
#103 = ORIENTED_EDGE ( 'NONE', *, *, #259, .F. ) ;
#104 = PRODUCT_DEFINITION_FORMATION_WITH_SPECIFIED_SOURCE ( 'ANY', '', #316, .NOT_KNOWN. ) ;
#105 = CARTESIAN_POINT ( 'NONE',  ( -1.614212418857619014, 0.000000000000000000, 10.00000000000000000 ) ) ;
#106 = VERTEX_POINT ( 'NONE', #205 ) ;
#107 = CC_DESIGN_PERSON_AND_ORGANIZATION_ASSIGNMENT ( #117, #92, ( #316 ) ) ;
#108 = APPROVAL_STATUS ( 'not_yet_approved' ) ;
#109 = DATE_AND_TIME ( #135, #190 ) ;
#110 = AXIS2_PLACEMENT_3D ( 'NONE', #45, #272, #143 ) ;
#111 = ORIENTED_EDGE ( 'NONE', *, *, #37, .F. ) ;
#112 = EDGE_CURVE ( 'NONE', #35, #246, #232, .T. ) ;
#113 = EDGE_CURVE ( 'NONE', #246, #263, #290, .T. ) ;
#114 = APPROVAL_STATUS ( 'not_yet_approved' ) ;
#115 = PERSON_AND_ORGANIZATION_ROLE ( 'creator' ) ;
#116 = ORIENTED_EDGE ( 'NONE', *, *, #160, .F. ) ;
#117 = PERSON_AND_ORGANIZATION ( #256, #4 ) ;
#118 = CARTESIAN_POINT ( 'NONE',  ( -1.614212418857619014, 0.000000000000000000, 0.000000000000000000 ) ) ;
#119 = CC_DESIGN_APPROVAL ( #322, ( #189 ) ) ;
#120 = ORIENTED_EDGE ( 'NONE', *, *, #37, .T. ) ;
#121 = EDGE_CURVE ( 'NONE', #202, #35, #144, .T. ) ;
#122 = CARTESIAN_POINT ( 'NONE',  ( 2.999999999999999112, 0.000000000000000000, 0.000000000000000000 ) ) ;
#123 = AXIS2_PLACEMENT_3D ( 'NONE', #30, #284, #215 ) ;
#124 = EDGE_CURVE ( 'NONE', #81, #315, #207, .T. ) ;
#125 = LINE ( 'NONE', #21, #57 ) ;
#126 = PLANE ( 'NONE',  #291 ) ;
#127 = DIRECTION ( 'NONE',  ( 0.000000000000000000, 0.000000000000000000, 1.000000000000000000 ) ) ;
#128 = EDGE_CURVE ( 'NONE', #156, #81, #95, .T. ) ;
#129 = DIRECTION ( 'NONE',  ( -1.000000000000000000, -0.000000000000000000, -0.000000000000000000 ) ) ;
#130 = ORIENTED_EDGE ( 'NONE', *, *, #266, .T. ) ;
#131 = PLANE ( 'NONE',  #29 ) ;
#132 = ORIENTED_EDGE ( 'NONE', *, *, #249, .F. ) ;
#133 = CIRCLE ( 'NONE', #110, 10.00000000000000000 ) ;
#134 = CARTESIAN_POINT ( 'NONE',  ( -3.000000000000000444, 1.224646799147353256E-15, -10.00000000000000000 ) ) ;
#135 = CALENDAR_DATE ( 2020, 22, 12 ) ;
#136 = CARTESIAN_POINT ( 'NONE',  ( 2.999999999999999112, 12.69999999999999929, 0.000000000000000000 ) ) ;
#137 = ORIENTED_EDGE ( 'NONE', *, *, #267, .F. ) ;
#138 = SECURITY_CLASSIFICATION_LEVEL ( 'unclassified' ) ;
#139 = DIRECTION ( 'NONE',  ( 0.000000000000000000, 0.000000000000000000, 1.000000000000000000 ) ) ;
#140 = PERSON_AND_ORGANIZATION ( #256, #4 ) ;
#141 = CARTESIAN_POINT ( 'NONE',  ( -3.000000000000000000, 10.00000000000000000, 0.000000000000000000 ) ) ;
#142 = PRODUCT_RELATED_PRODUCT_CATEGORY ( 'detail', '', ( #316 ) ) ;
#143 = DIRECTION ( 'NONE',  ( 0.000000000000000000, 0.000000000000000000, 1.000000000000000000 ) ) ;
#144 = CIRCLE ( 'NONE', #157, 10.00000000000000000 ) ;
#145 = CIRCLE ( 'NONE', #235, 10.00000000000000000 ) ;
#146 = CARTESIAN_POINT ( 'NONE',  ( -2.500000000000000444, 0.000000000000000000, 0.000000000000000000 ) ) ;
#147 = DIRECTION ( 'NONE',  ( 0.000000000000000000, 0.000000000000000000, 1.000000000000000000 ) ) ;
#148 = CC_DESIGN_DATE_AND_TIME_ASSIGNMENT ( #109, #86, ( #89 ) ) ;
#149 = MANIFOLD_SOLID_BREP ( 'Ðý×', #199 ) ;
#150 = DIRECTION ( 'NONE',  ( 0.000000000000000000, 0.000000000000000000, 1.000000000000000000 ) ) ;
#151 = CIRCLE ( 'NONE', #79, 12.69999999999999929 ) ;
#152 = DIRECTION ( 'NONE',  ( 0.000000000000000000, 0.000000000000000000, 1.000000000000000000 ) ) ;
#153 = PRODUCT_DEFINITION_SHAPE ( 'NONE', 'NONE',  #89 ) ;
#154 = CARTESIAN_POINT ( 'NONE',  ( -1.614212418857619014, 0.000000000000000000, 0.000000000000000000 ) ) ;
#155 = DIRECTION ( 'NONE',  ( 0.000000000000000000, 0.000000000000000000, -1.000000000000000000 ) ) ;
#156 = VERTEX_POINT ( 'NONE', #277 ) ;
#157 = AXIS2_PLACEMENT_3D ( 'NONE', #122, #280, #127 ) ;
#158 = APPROVAL_PERSON_ORGANIZATION ( #245, #306, #269 ) ;
#159 = CYLINDRICAL_SURFACE ( 'NONE', #123, 10.00000000000000000 ) ;
#160 = EDGE_CURVE ( 'NONE', #312, #250, #23, .T. ) ;
#161 = DIRECTION ( 'NONE',  ( -1.000000000000000000, -0.000000000000000000, -0.000000000000000000 ) ) ;
#162 = ADVANCED_FACE ( 'NONE', ( #330 ), #233, .F. ) ;
#163 = FACE_OUTER_BOUND ( 'NONE', #1, .T. ) ;
#164 = EDGE_LOOP ( 'NONE', ( #324, #93 ) ) ;
#165 = AXIS2_PLACEMENT_3D ( 'NONE', #154, #255, #68 ) ;
#166 = PERSON_AND_ORGANIZATION ( #256, #4 ) ;
#167 = FACE_OUTER_BOUND ( 'NONE', #192, .T. ) ;
#168 = PLANE ( 'NONE',  #75 ) ;
#169 = PERSON_AND_ORGANIZATION_ROLE ( 'design_supplier' ) ;
#170 = EDGE_LOOP ( 'NONE', ( #15, #94, #3, #239 ) ) ;
#171 = ADVANCED_BREP_SHAPE_REPRESENTATION ( 'Q-ZDWWP-R42-20-1064-SHM', ( #149, #332 ), #221 ) ;
#172 = COORDINATED_UNIVERSAL_TIME_OFFSET ( 8, 0, .AHEAD. ) ;
#173 = CARTESIAN_POINT ( 'NONE',  ( -1.614212418857619014, 0.000000000000000000, 10.00000000000000000 ) ) ;
#174 = APPLICATION_CONTEXT ( 'configuration controlled 3d designs of mechanical parts and assemblies' ) ;
#175 = DESIGN_CONTEXT ( 'detailed design', #218, 'design' ) ;
#176 = CARTESIAN_POINT ( 'NONE',  ( 2.999999999999999112, 0.000000000000000000, 10.00000000000000000 ) ) ;
#177 = DIRECTION ( 'NONE',  ( -1.000000000000000000, 0.000000000000000000, -0.000000000000000000 ) ) ;
#178 = EDGE_CURVE ( 'NONE', #315, #90, #145, .T. ) ;
#179 = DIRECTION ( 'NONE',  ( -0.000000000000000000, 0.000000000000000000, 1.000000000000000000 ) ) ;
#180 = LOCAL_TIME ( 17, 2, 49.00000000000000000, #264 ) ;
#181 = DIRECTION ( 'NONE',  ( -1.000000000000000000, -0.000000000000000000, -0.000000000000000000 ) ) ;
#182 = DIRECTION ( 'NONE',  ( 0.000000000000000000, 0.000000000000000000, 1.000000000000000000 ) ) ;
#183 = CARTESIAN_POINT ( 'NONE',  ( 3.000000000000000000, 0.000000000000000000, 0.000000000000000000 ) ) ;
#184 = CIRCLE ( 'NONE', #283, 10.00000000000000000 ) ;
#185 = FACE_OUTER_BOUND ( 'NONE', #6, .T. ) ;
#186 = MECHANICAL_CONTEXT ( 'NONE', #174, 'mechanical' ) ;
#187 = ORIENTED_EDGE ( 'NONE', *, *, #188, .T. ) ;
#188 = EDGE_CURVE ( 'NONE', #106, #250, #27, .T. ) ;
#189 = SECURITY_CLASSIFICATION ( '', '', #138 ) ;
#190 = LOCAL_TIME ( 17, 2, 49.00000000000000000, #319 ) ;
#191 = DATE_AND_TIME ( #85, #297 ) ;
#192 = EDGE_LOOP ( 'NONE', ( #13, #241 ) ) ;
#193 = COORDINATED_UNIVERSAL_TIME_OFFSET ( 8, 0, .AHEAD. ) ;
#194 = DIRECTION ( 'NONE',  ( -1.000000000000000000, -0.000000000000000000, -0.000000000000000000 ) ) ;
#195 = PERSON_AND_ORGANIZATION ( #256, #4 ) ;
#196 = EDGE_CURVE ( 'NONE', #106, #65, #46, .T. ) ;
#197 = EDGE_LOOP ( 'NONE', ( #130, #187, #116, #82 ) ) ;
#198 = APPROVAL_ROLE ( '' ) ;
#199 = CLOSED_SHELL ( 'NONE', ( #17, #162, #313, #229, #74, #329, #34, #278, #77, #335 ) ) ;
#200 = APPROVAL_PERSON_ORGANIZATION ( #224, #322, #220 ) ;
#201 = DIRECTION ( 'NONE',  ( 0.000000000000000000, 0.000000000000000000, 1.000000000000000000 ) ) ;
#202 = VERTEX_POINT ( 'NONE', #176 ) ;
#203 = EDGE_LOOP ( 'NONE', ( #87, #58 ) ) ;
#204 = CARTESIAN_POINT ( 'NONE',  ( -1.614212418857619014, 1.224646799147353256E-15, -10.00000000000000000 ) ) ;
#205 = CARTESIAN_POINT ( 'NONE',  ( 3.000000000000000000, 1.555301434917138433E-15, -12.69999999999999929 ) ) ;
#206 = DIRECTION ( 'NONE',  ( 0.000000000000000000, 0.000000000000000000, 1.000000000000000000 ) ) ;
#207 = LINE ( 'NONE', #204, #11 ) ;
#208 = AXIS2_PLACEMENT_3D ( 'NONE', #118, #61, #60 ) ;
#209 = VECTOR ( 'NONE', #302, 1000.000000000000000 ) ;
#210 = CARTESIAN_POINT ( 'NONE',  ( -2.500000000000000444, 10.00000000000000000, 0.000000000000000000 ) ) ;
#211 = DIRECTION ( 'NONE',  ( 1.000000000000000000, 0.000000000000000000, 0.000000000000000000 ) ) ;
#212 = CC_DESIGN_PERSON_AND_ORGANIZATION_ASSIGNMENT ( #140, #295, ( #89 ) ) ;
#213 = EDGE_LOOP ( 'NONE', ( #325, #293, #33, #31 ) ) ;
#214 = APPROVAL_PERSON_ORGANIZATION ( #195, #98, #198 ) ;
#215 = DIRECTION ( 'NONE',  ( 0.000000000000000000, 0.000000000000000000, 1.000000000000000000 ) ) ;
#216 = EDGE_LOOP ( 'NONE', ( #219, #132 ) ) ;
#217 = DIRECTION ( 'NONE',  ( 0.000000000000000000, 0.000000000000000000, 1.000000000000000000 ) ) ;
#218 = APPLICATION_CONTEXT ( 'configuration controlled 3d designs of mechanical parts and assemblies' ) ;
#219 = ORIENTED_EDGE ( 'NONE', *, *, #128, .F. ) ;
#220 = APPROVAL_ROLE ( '' ) ;
#221 =( GEOMETRIC_REPRESENTATION_CONTEXT ( 3 ) GLOBAL_UNCERTAINTY_ASSIGNED_CONTEXT ( ( #66 ) ) GLOBAL_UNIT_ASSIGNED_CONTEXT ( ( #286, #311, #76 ) ) REPRESENTATION_CONTEXT ( 'NONE', 'WORKASPACE' ) );
#222 = PERSON_AND_ORGANIZATION ( #256, #4 ) ;
#223 = ORIENTED_EDGE ( 'NONE', *, *, #112, .T. ) ;
#224 = PERSON_AND_ORGANIZATION ( #256, #4 ) ;
#225 = FACE_OUTER_BOUND ( 'NONE', #164, .T. ) ;
#226 = DATE_TIME_ROLE ( 'classification_date' ) ;
#227 = AXIS2_PLACEMENT_3D ( 'NONE', #234, #48, #305 ) ;
#228 = CARTESIAN_POINT ( 'NONE',  ( 2.999999999999999112, 1.224646799147353256E-15, -10.00000000000000000 ) ) ;
#229 = ADVANCED_FACE ( 'NONE', ( #309 ), #126, .F. ) ;
#230 = CARTESIAN_POINT ( 'NONE',  ( -3.000000000000000444, 0.000000000000000000, 0.000000000000000000 ) ) ;
#231 = AXIS2_PLACEMENT_3D ( 'NONE', #230, #47, #147 ) ;
#232 = LINE ( 'NONE', #22, #248 ) ;
#233 = CYLINDRICAL_SURFACE ( 'NONE', #165, 10.00000000000000000 ) ;
#234 = CARTESIAN_POINT ( 'NONE',  ( -3.000000000000000000, 0.000000000000000000, 0.000000000000000000 ) ) ;
#235 = AXIS2_PLACEMENT_3D ( 'NONE', #101, #71, #150 ) ;
#236 = DIRECTION ( 'NONE',  ( 0.000000000000000000, 0.000000000000000000, 1.000000000000000000 ) ) ;
#237 = ORIENTED_EDGE ( 'NONE', *, *, #196, .T. ) ;
#238 = CC_DESIGN_APPROVAL ( #306, ( #104 ) ) ;
#239 = ORIENTED_EDGE ( 'NONE', *, *, #259, .T. ) ;
#240 = FACE_OUTER_BOUND ( 'NONE', #216, .T. ) ;
#241 = ORIENTED_EDGE ( 'NONE', *, *, #196, .F. ) ;
#242 = CALENDAR_DATE ( 2020, 22, 12 ) ;
#243 = CC_DESIGN_DATE_AND_TIME_ASSIGNMENT ( #323, #226, ( #189 ) ) ;
#244 = CALENDAR_DATE ( 2020, 22, 12 ) ;
#245 = PERSON_AND_ORGANIZATION ( #256, #4 ) ;
#246 = VERTEX_POINT ( 'NONE', #26 ) ;
#247 = PERSON_AND_ORGANIZATION ( #256, #4 ) ;
#248 = VECTOR ( 'NONE', #96, 1000.000000000000000 ) ;
#249 = EDGE_CURVE ( 'NONE', #81, #156, #184, .T. ) ;
#250 = VERTEX_POINT ( 'NONE', #276 ) ;
#251 = DIRECTION ( 'NONE',  ( 0.000000000000000000, 0.000000000000000000, -1.000000000000000000 ) ) ;
#252 = DIRECTION ( 'NONE',  ( -0.000000000000000000, 0.000000000000000000, 1.000000000000000000 ) ) ;
#253 = CARTESIAN_POINT ( 'NONE',  ( 3.000000000000000000, 0.000000000000000000, 0.000000000000000000 ) ) ;
#254 = CC_DESIGN_APPROVAL ( #98, ( #89 ) ) ;
#255 = DIRECTION ( 'NONE',  ( -1.000000000000000000, -0.000000000000000000, -0.000000000000000000 ) ) ;
#256 = PERSON ( 'UNSPECIFIED', 'UNSPECIFIED', 'UNSPECIFIED', ('UNSPECIFIED'), ('UNSPECIFIED'), ('UNSPECIFIED') ) ;
#257 = VECTOR ( 'NONE', #299, 1000.000000000000000 ) ;
#258 = EDGE_LOOP ( 'NONE', ( #103, #54 ) ) ;
#259 = EDGE_CURVE ( 'NONE', #90, #315, #41, .T. ) ;
#260 = FACE_OUTER_BOUND ( 'NONE', #170, .T. ) ;
#261 = LINE ( 'NONE', #105, #100 ) ;
#262 = EDGE_LOOP ( 'NONE', ( #7, #320 ) ) ;
#263 = VERTEX_POINT ( 'NONE', #32 ) ;
#264 = COORDINATED_UNIVERSAL_TIME_OFFSET ( 8, 0, .AHEAD. ) ;
#265 = DIRECTION ( 'NONE',  ( -1.000000000000000000, 0.000000000000000000, -0.000000000000000000 ) ) ;
#266 = EDGE_CURVE ( 'NONE', #65, #106, #63, .T. ) ;
#267 = EDGE_CURVE ( 'NONE', #250, #312, #151, .T. ) ;
#268 = AXIS2_PLACEMENT_3D ( 'NONE', #253, #328, #206 ) ;
#269 = APPROVAL_ROLE ( '' ) ;
#270 = CYLINDRICAL_SURFACE ( 'NONE', #279, 12.69999999999999929 ) ;
#271 = APPLICATION_PROTOCOL_DEFINITION ( 'international standard', 'config_control_design', 1994, #218 ) ;
#272 = DIRECTION ( 'NONE',  ( -1.000000000000000000, -0.000000000000000000, -0.000000000000000000 ) ) ;
#273 = DIRECTION ( 'NONE',  ( 1.000000000000000000, 0.000000000000000000, 0.000000000000000000 ) ) ;
#274 = CIRCLE ( 'NONE', #69, 10.00000000000000000 ) ;
#275 = CARTESIAN_POINT ( 'NONE',  ( -2.500000000000000444, 0.000000000000000000, 0.000000000000000000 ) ) ;
#276 = CARTESIAN_POINT ( 'NONE',  ( -3.000000000000000000, 1.555301434917138433E-15, -12.69999999999999929 ) ) ;
#277 = CARTESIAN_POINT ( 'NONE',  ( -2.500000000000000444, 0.000000000000000000, 10.00000000000000000 ) ) ;
#278 = ADVANCED_FACE ( 'NONE', ( #163 ), #80, .T. ) ;
#279 = AXIS2_PLACEMENT_3D ( 'NONE', #10, #194, #201 ) ;
#280 = DIRECTION ( 'NONE',  ( -1.000000000000000000, -0.000000000000000000, -0.000000000000000000 ) ) ;
#281 = DIRECTION ( 'NONE',  ( -1.000000000000000000, -0.000000000000000000, -0.000000000000000000 ) ) ;
#282 = DIRECTION ( 'NONE',  ( -1.000000000000000000, -0.000000000000000000, -0.000000000000000000 ) ) ;
#283 = AXIS2_PLACEMENT_3D ( 'NONE', #275, #99, #251 ) ;
#284 = DIRECTION ( 'NONE',  ( -1.000000000000000000, -0.000000000000000000, -0.000000000000000000 ) ) ;
#285 = EDGE_LOOP ( 'NONE', ( #289, #314, #120, #91 ) ) ;
#286 =( LENGTH_UNIT ( ) NAMED_UNIT ( * ) SI_UNIT ( .MILLI., .METRE. ) );
#287 = CC_DESIGN_PERSON_AND_ORGANIZATION_ASSIGNMENT ( #222, #115, ( #104 ) ) ;
#288 = CARTESIAN_POINT ( 'NONE',  ( -3.000000000000000000, 0.000000000000000000, 0.000000000000000000 ) ) ;
#289 = ORIENTED_EDGE ( 'NONE', *, *, #112, .F. ) ;
#290 = CIRCLE ( 'NONE', #303, 10.00000000000000000 ) ;
#291 = AXIS2_PLACEMENT_3D ( 'NONE', #73, #177, #179 ) ;
#292 = APPROVAL_DATE_TIME ( #191, #322 ) ;
#293 = ORIENTED_EDGE ( 'NONE', *, *, #124, .T. ) ;
#294 = FACE_OUTER_BOUND ( 'NONE', #285, .T. ) ;
#295 = PERSON_AND_ORGANIZATION_ROLE ( 'creator' ) ;
#296 = FACE_OUTER_BOUND ( 'NONE', #197, .T. ) ;
#297 = LOCAL_TIME ( 17, 2, 49.00000000000000000, #193 ) ;
#298 = APPROVAL_DATE_TIME ( #9, #98 ) ;
#299 = DIRECTION ( 'NONE',  ( -1.000000000000000000, -0.000000000000000000, -0.000000000000000000 ) ) ;
#300 = CALENDAR_DATE ( 2020, 22, 12 ) ;
#301 = DIRECTION ( 'NONE',  ( -1.000000000000000000, -0.000000000000000000, -0.000000000000000000 ) ) ;
#302 = DIRECTION ( 'NONE',  ( -1.000000000000000000, -0.000000000000000000, -0.000000000000000000 ) ) ;
#303 = AXIS2_PLACEMENT_3D ( 'NONE', #50, #281, #152 ) ;
#304 = LOCAL_TIME ( 17, 2, 49.00000000000000000, #64 ) ;
#305 = DIRECTION ( 'NONE',  ( 0.000000000000000000, 0.000000000000000000, 1.000000000000000000 ) ) ;
#306 = APPROVAL ( #114, 'UNSPECIFIED' ) ;
#307 = DIRECTION ( 'NONE',  ( -1.000000000000000000, -0.000000000000000000, -0.000000000000000000 ) ) ;
#308 = EDGE_CURVE ( 'NONE', #156, #90, #261, .T. ) ;
#309 = FACE_OUTER_BOUND ( 'NONE', #262, .T. ) ;
#310 = AXIS2_PLACEMENT_3D ( 'NONE', #146, #51, #72 ) ;
#311 =( NAMED_UNIT ( * ) PLANE_ANGLE_UNIT ( ) SI_UNIT ( $, .RADIAN. ) );
#312 = VERTEX_POINT ( 'NONE', #333 ) ;
#313 = ADVANCED_FACE ( 'NONE', ( #185 ), #38, .F. ) ;
#314 = ORIENTED_EDGE ( 'NONE', *, *, #121, .F. ) ;
#315 = VERTEX_POINT ( 'NONE', #134 ) ;
#316 = PRODUCT ( 'Q-ZDWWP-R42-20-1064-SHM', 'Q-ZDWWP-R42-20-1064-SHM', '', ( #186 ) ) ;
#317 = CARTESIAN_POINT ( 'NONE',  ( -1.614212418857619014, 0.000000000000000000, 0.000000000000000000 ) ) ;
#318 = ORIENTED_EDGE ( 'NONE', *, *, #113, .T. ) ;
#319 = COORDINATED_UNIVERSAL_TIME_OFFSET ( 8, 0, .AHEAD. ) ;
#320 = ORIENTED_EDGE ( 'NONE', *, *, #113, .F. ) ;
#321 = AXIS2_PLACEMENT_3D ( 'NONE', #183, #282, #102 ) ;
#322 = APPROVAL ( #108, 'UNSPECIFIED' ) ;
#323 = DATE_AND_TIME ( #244, #180 ) ;
#324 = ORIENTED_EDGE ( 'NONE', *, *, #160, .T. ) ;
#325 = ORIENTED_EDGE ( 'NONE', *, *, #128, .T. ) ;
#326 = LINE ( 'NONE', #173, #257 ) ;
#327 = CYLINDRICAL_SURFACE ( 'NONE', #208, 10.00000000000000000 ) ;
#328 = DIRECTION ( 'NONE',  ( -1.000000000000000000, -0.000000000000000000, -0.000000000000000000 ) ) ;
#329 = ADVANCED_FACE ( 'NONE', ( #260 ), #159, .F. ) ;
#330 = FACE_OUTER_BOUND ( 'NONE', #213, .T. ) ;
#331 = CARTESIAN_POINT ( 'NONE',  ( -1.614212418857619014, 1.555301434917138433E-15, -12.69999999999999929 ) ) ;
#332 = AXIS2_PLACEMENT_3D ( 'NONE', #52, #236, #211 ) ;
#333 = CARTESIAN_POINT ( 'NONE',  ( -3.000000000000000000, 0.000000000000000000, 12.69999999999999929 ) ) ;
#334 = ORIENTED_EDGE ( 'NONE', *, *, #40, .F. ) ;
#335 = ADVANCED_FACE ( 'NONE', ( #240 ), #131, .F. ) ;
ENDSEC;
END-ISO-10303-21;
